Jump to content
Българският форум за музиканти

Dilian Nedev

Muzikant.org - Архив с ТАВ-ове на български песни

Recommended Posts

Не знам как е при другите, ама аз свиря по усет. Свири както ти хареса. Ако има и други инструменти и/или публиката е в напреднало нетрезво състояние никой няма да забележи, че не свириш точно както е в "еди-кой си таб". Споко, купон да става ;)

Share this post


Link to post
Share on other sites

може ли някой, който ги има тези таб-ове или поне част от тях да ги прати на e-mail : dimov.teodor@yahoo.com , защото наистине не работи нито един от линковете. Благодаря предварително !

Share this post


Link to post
Share on other sites

А защо не четете? Има ги всички качени на сайта ми, откъдето могат да се изтеглят. Приятно свирене! :)

Share this post


Link to post
Share on other sites

Богдана Карадочева и Стефан Димитров - Безнадежден случай

 

Ей до сега се мотах с тази весела песничка, дето само с хубави спомени я свързвам, та реших да я споделя с всички. Извинявайте предварително, щото гледам повечето песни са на Guitar Pro, ама не знам как да го ползвам това чудо освен да прочитам ноти с него:

Богдана Карадочева и Стефан Димитров - Безнадежден случай

Въпроси, корекции, предложения - svilen@alum.rit.edu

Използвани акорди:
  Em     Am     B
E|-7------5------7-
B|-8------5------7-
G|-9------5------8-
D|-9------7------9-
A|-7------7------9-
E|-X------5------7-

Въведение:
================================
  Em           Am         Bm           Em
E|-------------------------------------------------
B|-------------------------------------------------
G|-----------------------9-X---9--9---9b10r9---9---
D|-7s9---9--X---9b10r9-7------------7-9b10r9-7-----
A|-------------------------------------------------
E|-------------------------------------------------

  Em       Am
E|---------------------------------------------
B|-------------------------------------13-12---
G|-9b10r9---7~----9----------9-8-12-11---------
D|-9b10r9---7h9p7-----9h10p9-------------------
A|---------------------------------------------
E|---------------------------------------------

Куплет1:
================================
[Em]Компетентните [Am]поколения
[b]се опитват да [Em]ни научат,
[Em]на това, че не [Am]си за мене,
-> ние сме безнадежден случaй!

->
E|---------------------
B|---------------------
G|---------------5-4---
D|-------2-1-5-4-------
A|-2h3p2---------------
E|---------------------

Куплет 2:
================================
[Em]Заприличали [Am]сме на хора,
[b]дето вечно си [Em]губят ключа.
[Em]Няма да го на[Am]мерим скоро,
-> ние сме безнадежден случай.

->
E|---------------------
B|---------------------
G|---------------5-4---
D|-------2-1-5-4-------
A|-2h3p2---------------
E|---------------------

Припев x2:
================================
Колко пъти, колко пъти, един ли, [Am]сто ли,
ни раз[b]деляха с думи [Em]тежки.
Аз съм [Em]твоето слабо[Am]волие,
ти си [b]мойта любима [Em]грешка.

Въведение x1
================================

Solo:
================================
E|----------------------------------------------------
B|-------12---------------15--------------------------
G|-11h12------14b15r14s15------14h15p14-12-14---8-8s9-
D|----------------------------------------------------
A|----------------------------------------------------
E|----------------------------------------------------

E|-------------------------------------------------------------
B|------------------------12~----12--------------------13-12---
G|-8s9-11-9s11-12-11s12~-----12~-------------9-8-12-11---------
D|------------------------------------9h10p9-------------------
A|-------------------------------------------------------------
E|-------------------------------------------------------------

Повтори Куплет2 и Припев x2
================================

Share this post


Link to post
Share on other sites

Подуене Блус Бенд - Ден след ден ако някои може да направи ще е супер

 

П.С: и ако може и на мене да пратите цялостния архив на simeonsko@mail.bg защото нещо немога да го сваля. Мерси предварително :rolleyes:

Edited by skopy

Share this post


Link to post
Share on other sites
В последните няколко месеца излязоха няколко български таба . Аз ги посъбрах , пооправих малко (особено тайминга на killer :hysterical: ) и ви ги представям тук . Засега те са шест с тенденция да станат повече .

 

БТР - Цвете от луната

БТР - Елмаз и стъкло

БТР - Хей момиче

Епизод - Песен за Азис

ФСБ - Пак ще се прегърнем

ФСБ - Високо

 

 

Немога да ги сваля ще може ли да ми ги пратите на manowar_fen@mail.bg

ще съм много благодарен

Share this post


Link to post
Share on other sites

Не е цяла песен, но много хора ме помолиха да им разпиша солото на Слави Трифонов - Нещо Лично и затова го пускам в тази тема.

 

 

http://www.fileden.com/files/2008/1/28/172...cription%29.gp4

 

Има два варианта. Първото е както съм го изсвирил на прима виста в едно клипче във Vbox, а второто е прецизно извадения оригинал.

 

Ако модераторите сметнат, нека го преместят в друга тема.

 

Поздрави,

 

Марин.

Share this post


Link to post
Share on other sites

Много полезна темичка! :greenangel:

 

Елмаз и стъкло - FullSong

Солата на китарата съм ги писал по пианото и не са построени по грифа, сори за което. :D

Share this post


Link to post
Share on other sites

Major Update (както казват братята финландци) за любимата ми песен на Б.Т.Р. - Дюн. С групата започнахме да я свирим и седнахме да разпишем в Guitar Pro каквото свирим. Едно 95% вярност с оригинала има... IMHO... :greenball:

 

Мястото за даунлоуд е същото - качена е при другите на САЙТА ми. Успех на всички фенове!

Share this post


Link to post
Share on other sites

Можете ли да направите таб на Ахат-Дървото.И настройките за нея ако може(low mid high) :)

Share this post


Link to post
Share on other sites

МерхабаслЪ!

 

Някой случайно да е смукал БТР - Хвани живота си в ръце? Не ми изглежда сложна (тръгнах да я вадя по слух и не ми се струва да има някакви супер велики и страшни рифове), но напоследък не ми остава време да свиря и нотирането ще ми е по-голям ад и от преди..

 

П.П. BabyThomas, на къв Владко благодариш за "аз рокясах" школите? Вярно, че аз ги бях качвал по едно време в датата, ма надали визираш мен? ;)

 

Поздрави,

Влад

Share this post


Link to post
Share on other sites

Create an account or sign in to comment

You need to be a member in order to leave a comment

Create an account

Sign up for a new account in our community. It's easy!

Register a new account

Sign in

Already have an account? Sign in here.

Sign In Now

×

Important Information

We have placed cookies on your device to help make this website better. You can adjust your cookie settings, otherwise we'll assume you're okay to continue.