Jump to content
Българският форум за музиканти

John Scofield - A Go Go таблатури?


Recommended Posts

Здравейте колеги!

 

Опитвам се да извадя солото, но от средата нататък ми става сложно. Някой случайно дали има таблатури на парчето?

Link to comment
Share on other sites

Тя неволята...    

 

 

Това е първата ми таблатура и със сигурност има много пропуснати и неточни интерпретации. Ако имате желание коментиратйе ги за да подобрим форума ;)

 

 

|  .  = palm mute  |  ^ = bend up  |  v = bend down |   / = slide  |  : = pause  |   ( ) = ghost note |   * = chop  |  x = muted string  
 
 
Main part x2
 
|-------------------------------------------|--------------------------------------|
|-------------------------------------------|--------------------------------------|
|-------11-9------9------10/11--------------|------11-9------9------9^v------------|
|------------12-9---12---------12-9-9-9~----|-----------12-9---12-------12-9-9~----|
|-------------------------------------------|--------------------------------------|
|-------------------------------------------|--------------------------------------|
 
 
|----------------------------------------------------|
|----------------------------------------------------|
|-----11-9------9----9^:----11-9------9----9^:  -------|
|---9------12-9---12---:--9------12-9---12---:  -------|
|----------------------------------------------------|
|----------------------------------------------------|
 
 
|--------------------------------------|
|--------------------------------------|
|------11-9------9------9^v------------|
|-----------12-9---12-------12-9-9~----|
|--------------------------------------|
|--------------------------------------|
 
 
 
Bridge 1 x2
 
|-------------------------------------|
|-------------------------------------|
|-------------------------------------|
|--5--3/5--8---------5--5-----5--5----|
|-------------------------------------|
|--3--1/3--6---------3--3-----3--3----|
 
 
|-------------------------------------|
|-------------------------------------|
|-------------------------------------|
|--5--3/5--8---------5--5-------------|
|-------------------------------------|
|--3--1/3--6---------3--3-------------|
 
 
 
Main part x1
 
|-------------------------------------------|-------------------------------------------|
|-------------------------------------------|-------------------------------------------|
|------11-9------9------9^v-----------------|-------11-9------9------10/11--------------|
|-----------12-9---12-------12-9-9~  --------|------------12-9---12---------12-9-9-9~  ---|
|-------------------------------------------|-------------------------------------------|
|-------------------------------------------|-------------------------------------------|
 
 
|----------------------------------------------------|
|----------------------------------------------------|
|-----11-9------9----9^: ----11-9------9----9^: -------|
|---9------12-9---12---: --9------12-9---12---: -------|
|----------------------------------------------------|
|----------------------------------------------------|
 
 
|--------------------------------------|
|--------------------------------------|
|------11-9------9------9^v------------|
|-----------12-9---12-------12-9-9~----|
|--------------------------------------|
|--------------------------------------|
 
Bridge 2 x1
 
|--------------------------------------|
|--------------------------------------|
|--------------------------------------|
|---11-10-11-10-11-10-1112-------------|
|--------------------------------------|
|---9--8--9--8--9--8--9-10-------------|
 
 
Solo
 
     .
|--------------------------------------|
|--12:-12~ ----------------------------|
|-----------(11)/----------------------|
|--------------------------------------|
|--------------------------------------|
|--------------------------------------|
 
 
|--------------------------------------|
|--------------------------------------|
|--13p11-11~ --------------------------|
|--------------9p7-9-9~ ---------------|
|--------------------------------------|
|--------------------------------------|
 
     .   .   .   .   .       
|--------------------------------------|
|--------------------------------------|
|--9-7----------9^-7-------------------|
|------9-9-9---------9-9-9-(7)/--------|
|--------------------------------------|
|--------------------------------------|
 
|--------------------------------------|
|--------------------------------------|
|--7--------------7--------------------|
|----7--9~ -7-9-7---7-9~ --------------|
|--------------------------------------|
|--------------------------------------|
 
2:12
|--------------------------------------|
|--10-9-7------------------------------|
|---------9-7-9-9-9---9^vp7------------|
|--------------------------9-----------|
|--------------------------------------|
|--------------------------------------|
 
|--------------------------------------|
|--------------------------------------|
|--------------------------------------|
|-----7--------------------------------|
|--7h9---7-7h9p7-----------------------|
|----------------7-(7/9)----------------|
 
|-----------------------------------------------------|
|-----------------------------------------------------|
|---------9-------------------------------------------|
|----------------------12---11p9-11p9-----------------|
|--9-11--9--9-9-9-7--9---------------12-11-9---9------|
|--------------------------------------------12--12/--|
 
 
|--------------------------------------|
|--------------------------------------|
|------11-9------9------9^v------------|
|-----------12-9---12-------12-9-9~----|
|--------------------------------------|
|--------------------------------------|
 
 
2:21
|--------------------------------------|
|-------12-----------------------------|
|--14~~  --13----14-11------------------|
|-----------14--------14:  14-12-14^ ----|
|--------------------------------------|
|--------------------------------------|
 
 
|-------------------------------------------|
|-------------------------------------------|
|------14p13^~  -----------------------------|
|----12-------------------14^v--12^v--------|
|--14---------------14^v  ----------12-(11)---|
|-------------------------------------------|
 
     .      .
|------------------------------------------------------------------|
|--17: 17---15-17-15-17^:  17^ ---17v p15------15~~ -----15------------|
|----------------------------------------16------------16----------|
|--------------------------------------------------16----16--14~---|
|----------------------------------------------------------17------|
|------------------------------------------------------------------|
 
 
 
|-------------------------------------------|
|-------------------------------------------|
|--------14---------------------------------|
|---14/16--14/16~  --------------------------|
|----------------------14v^v~~------(10)--(7)-|
|-------------------------------------------|
 
 
 
2:39
|----------------------------------------|
|----------------------------------------|
|----------------------------------------|
|----------------------------------------|
|----7-7-7-7--7^--7^---------------------|
|---------------10-----------------------|
                
                 
|----------------------------------------|
|----------------------------------------|
|----------------------------------------|
|----------------------------------------|
|----7-7-7-7-7-7-7h9p7-------------------|
|----------------------7-7-7h9p7h9-------|
 
 
2:49                 
|-----------------------------------------------------------|
|-----------------------------------------------------------|
|----------------------------11^:---------------------------|
|---------------7-----------x----12^------------------------|
|----7-7-7-7-7s9--7^v------x--------14:---------------------|
|--------------------7----x---------------------------------|
                     
                                     .
|-------------------------------------------------------------------------|
|-------------------------------------------------------------------------|
|----------7-------7-9-9-9-9-9-7~ ----------------------------------------|
|----6-9-6---6-9-6--------------------------------------------------------|
|-------------------------------------------------------------------------|
|-------------------------------------------------------------------------|
 
|----------------12-14------------------------15\17-----------------------|
|-------12-15-12-------12p15-12------------15--------17^------------------|
|----11-------------------------14-11-14\16---------x---------------------|
|--------------------------------------------------x----------------------|
|-------------------------------------------------x-----------------------|
|-------------------------------------------------------------------------|
 
 
|-------------------------------------------------------------------------|
|-15-12-------------------------------------------------------------------|
|-------14-11-------------------------------------------------------------|
|-------------14-12---------------------------------------------------12--|
|-------------------14h16~ 14h16~ 14h16p14h16---------12--14-12----14-----|
|-------------------------------------------------------------------------|
 
--->    Effect...                                                                                                             <---
|--------------------------------------------------------------------------|
|--------------------------------------------------------------------------|
|--------------------------------------------------------------------------|
|---------------------------12----------12~ -----12-------12--12-----------|
|---14h16~ 14h16~ ---14-12-14-----14p12---11--12--14--14-12----------------|
|----------------------------------------------------------------14--------|
 
 
3:07
|----------------------------------------------------------------------------------|
|----------------------------------------------------------------------------------|
|---14^~ 16p14---------------------------------------------------------------------|
|-------------16-14h16-14h16------15^-15^v---15^-----------14-----14h16------------|
|-----------------------------------------17------14-14-17-----17-------17-14-14/--|
|----------------------------------------------------------------------------------|
 
 
|-------------------------------------------------------------|
|--17-19p17p15------------------17-19-15-15h17----------------|
|--------------16---16-16-16------------------16---16-16-16---|
|-------------------------------------------------------------|
|-------------------------------------------------------------|
|-------------------------------------------------------------|
 
 
|--------------------------------14^------------------14^----14---|
|--15h17-17-17-15h17-17-17-17-17------17-17-17-15/--17----17------|
|-----------------------------------------------------------------|
|-----------------------------------------------------------------|
|-----------------------------------------------------------------|
|-----------------------------------------------------------------|
 
3:24
|----17^: -----------------------------------------|
|----17^: -17^v-15^--------------------------------|
|---x---------------16-----------------------------|
|--x---------------------16p14-16-16^v-16-14-------|
|--------------------------------------------16/ --|
|--------------------------------------------------|
 
                                      *     *       *                                                *     *     * 
|-----------------------------------------------------------------|
|---------------------------------------------------x--x--x-------|
|---------------------------------------------------x--x--x-------|
|---18----------------------------------------------x--x--x-------|
|-----17^:   14-------17-18--(14)------------------------------------|
|-------------------------------(12h13p12h13)----------------------|
 
 
3:35      *     *       *             *    *    *
|-----------------------------------------------------------------|
|-----------------------------------------------------------------|
|-----------------------------------------------------------------|
|------12-13:   12^v^v   12-14-12-14^v^v  -----------------------------|
|-----------------------------------------------------------------|
|-----------------------------------------------------------------|
 
                                                                                                |---> Effect...   
|-----------------------------------------------------------------|
|-----------------------------------------------------------------|
|-------------------------------------------------19--16----------|
|--14h16p14:  14~   14h15p14------------------------------16~  -------|
|--------------------------14~ 14~ --------------------------------|
|--------------------------------------13/10----------------------|
 
 
3:43
|-----------------------------------------------------------------|
|-----------------------------------------------------------------|
|-----------------------------------------------------------------|
|---14v-12--------------------------------------------------------|
|----------14-15^ 15^ v (15p14p12) ----------------------------------|
|-----------------------------------------------------------------|
 
       *             *         *   *     *
|-----------------------------------------------------------------|
|-----------------------------------------------------------------|
|---11:  9--------9-----9^:  ----------------------------------------|
|----------12-9---12: ---------------------------------------------|
|-----------------------------------8-----------------------------|
|--------------------------------------7-7------------------------|
 
 
Edited by Ground
Link to comment
Share on other sites

Join the conversation

You can post now and register later. If you have an account, sign in now to post with your account.
Note: Your post will require moderator approval before it will be visible.

Guest
Reply to this topic...

×   Pasted as rich text.   Paste as plain text instead

  Only 75 emoji are allowed.

×   Your link has been automatically embedded.   Display as a link instead

×   Your previous content has been restored.   Clear editor

×   You cannot paste images directly. Upload or insert images from URL.

×
×
  • Create New...

Important Information

We have placed cookies on your device to help make this website better. You can adjust your cookie settings, otherwise we'll assume you're okay to continue.