Към съдържанието


Снимка

Tab na SOAD-Roulette solo


  • Please log in to reply
1 отговор на тази тема

#1 PuritY

PuritY

    Ослушващ се

  • newbies
  • Pip
  • 14 Мнения:

Публикувано 17 октомври 2004 - 17:42

Hora, ot super mnou vreme se probvam da hvana kraia na soloto na system of a down-roulette ama nishto ne stava :!:
sas sigurnost po4va taka:
D|-10--101213--121315--121315-13-12-10-12-13-12-1010------||
A|--------------------------------------------------------||
F|--------------------------------------------------------||
C|--------------------------------------------------------||
G|--------------------------------------------------------||
C|--------------------------------------------------------||

D|--------------------------------------------------------||
A|-1010--101113-11-10-8-10-11-10-88--------------||
F|--------------------------------------------55----???????------||
C|--------------------------------------------------------||
G|--------------------------------------------------------||
C|--------------------------------------------------------||


ama tva deto sledva sled tova po nikaf na4in ne moga da go hvana a mi e super merak...ako nikoi znae kak stva da udari edin red :D 10x

#2 PuritY

PuritY

    Ослушващ се

  • newbies
  • Pip
  • 14 Мнения:

Публикувано 22 октомври 2004 - 14:49

kakto i da e , az uspiah da go necela :)
ako na niakoi mu e interesno ei taka e:
D|-10--101213--121315--121315-13-12-10-12-13-12-1010------||
A|----------------------------------------------------------------------||
F |----------------------------------------------------------------------||
C|----------------------------------------------------------------------||
G|----------------------------------------------------------------------||
C|----------------------------------------------------------------------||

D|--------------------------------------------------------------------------------||
A|-1010--101113-11-10-8-10-11-10-88------------1011-10-10--8-8--6-6-||
F|---------------------------------------------55------1012-10-10--9-9--7-7-||
C|-------------------------------------------------------------------------------||
G|--------------------------------------------------------------------------------||
C|-------------------------------------------------------------------------------||

i zvu4i viarno :)




0 потребител(и) четат тази тема

0 потребители, 0 гости, 0 анонимни